怎样读写文本六线谱 - 编译:stonyrocky
 
什么是文本六线谱?
文本六线谱能表现什么?
文本六线谱不能表现什么?
 
怎样读识文本六线谱
文本六线谱的基本符号
其他常用符号
打弦和拉弦(Hammer on and Pull off)
推弦(bends)
滑弦(slide)
文本六线谱中的时值体现
 
怎样写文本六线谱
如何开始
是否需要用六线谱
如何去写
写六线谱的注意事项

什么是文本六线谱?

文本六线谱是在计算机上用ASCII码的形式记录吉他曲谱的方法。它是在Internet这种特殊的传播媒体上发展起来的。以图象格式存在的正规曲谱制作起来比较麻烦,而且对于某些不同操作系统的计算机还存在浏览上的限制。而文本六线谱是由文本字符和数字写成,任何计算机都可浏览下载,更方便互联网上吉他爱好者的相互交流。尽管没有正规的曲谱看上去完美,但文本六线谱的歌曲资源实在是太多了,现在几乎所有提供吉他曲谱的网站都在使用文本六线谱,可以说你想要找什么歌的吉他谱,都可以在网上找到。

文本六线谱能表现什么?

文本六线谱能告诉你应该弹哪些音,也就是音发自吉他上的哪根弦,哪个品位。
文本六线谱还能告诉你哪些地方需要使用打弦、拉弦、推弦、滑弦、泛音和颤音等技巧。
文本六线谱还能告诉你这首歌使用的是什么调弦方法,如果没有专门指出,则默认的是吉他的标准调弦。如果需要使用品夹,文本六线谱也会标出。
文本六线谱还能告诉你歌曲的节奏,音符的长短。
但音符的准确时值,文本六线谱却无法表现,所以我们就来看看下面

文本六线谱不能表现什么?

文本六线谱通常不能够准确的表现音符的时值,所以这需要你在弹奏曲子之前,边看六线谱边听这首歌曲的录音,以找准节奏。
文本六线谱也不能够告诉你应该用哪根手指去弹哪个音。
文本六线谱通常也不会告诉你拨弦和扫弦的细节,要由你自己来决定哪些地方该用上拨,哪些地方该用下拨。

怎样读识文本六线谱

文本六线谱的基本符号

文本六线谱读识起来很简单。如果你自己扒了一首歌曲的吉他伴奏或SOLO,想用文本来记录成六线谱,那同样是很容易的。基本原理是这样的:
先要打出六条线,这就表示吉他的六根线。在上方的是高音弦,下方是低音弦。下面就是基本的六线谱谱线,没有任何音符,只有六根空弦,左边是每根弦的音高名称。

E----------------------------------------------------------------
B----------------------------------------------------------------
G----------------------------------------------------------------
D----------------------------------------------------------------
A----------------------------------------------------------------
E----------------------------------------------------------------

在线上写出的数字表示你的左手应该在此弦上按的哪个品位。如果是0的话,表示弹奏空弦,也就是开放弦。弹奏音的顺序是由左向右。下面这一条六线谱弹奏起来应该是从低音E弦的开放弦开始,每个音升高一个品位,顺序弹奏出E F F# G G# A 这几个音。

E----------------------------------------------------------------
B----------------------------------------------------------------
G----------------------------------------------------------------
D----------------------------------------------------------------
A----------------------------------------------------------------
E---0--1--2--3--4--5---------------------------------------------

OK :)现在我们来看一下同时弹奏多个音。如果两个或更多的音要同时弹奏,在写的时候就要把音的数字并列在一列,理解起来应该是和五线谱或标准六线谱一样的。下面这个例子就是一个G的大横按和弦,这表示此和弦的所有音要同时弹奏。

E----3-----------------------------------------------------------
B----3-----------------------------------------------------------
G----4-----------------------------------------------------------
D----5-----------------------------------------------------------
A----5-----------------------------------------------------------
E----3-----------------------------------------------------------

但有时你也会遇到和弦是象下面这样写出的:

E--------3-------------------------------------------------------
B-------3--------------------------------------------------------
G------4---------------------------------------------------------
D-----5----------------------------------------------------------
A----5-----------------------------------------------------------
E---3------------------------------------------------------------

从六线谱上的数字来看,我们知道这与上面是同一个G和弦,左手的按法是一样的。但弹奏方法所不同的是,这个和弦要从低音E弦开始向下顺序扫拨弹奏,每根弦都要比前一根弦延迟一小会儿拨击,虽然声音不是同时发出,但当扫完最后一根弦时,六根弦仍会共鸣。下面这个例子还是同样的G和弦,但你会注意到数字之间的距离比上个和弦要大些,所以这次你就需要将每根弦逐一地分别弹奏,而不是从上至下扫拨下来了。

E------------------3---------------------------------------------
B---------------3-----3------------------------------------------
G------------4-----------4---------------------------------------
D---------5-----------------5------------------------------------
A------5-----------------------5---------------------------------
E---3-----------------------------3------------------------------

你也许会问-我怎么才能知道弹奏这些音需要多快多慢呢?这些音的长短都是一致的吗?这也正是文本六线谱与标准曲谱的区别,一般来说文本六线谱不会给出音符时值的长短。需要你自己去多听歌曲的录音来找到节奏。但是也不要失望,文本六线谱中还是会给出一些节奏上的暗示。象上面那个例子,音符之间的距离是均等的,所以我们可以推测它们的音值也是相等的,但具体是八分音符还是四分音符,或是三连音,我们还是无法知道。而且写谱的人有不同的习惯,所以最好还是多听原曲的录音。当你对一首歌非常熟悉之后,它的节奏和旋律也就在你的心里了,谱子只是起一个提示作用,虽然不很清楚,但你学习弹奏很会显得很轻松的。

下面是一个旋律片段,音符之间的不同距离表示音的长短,大家可试着弹奏一下。

E-----------------------0--------4--2-0--------------------------
B---0--------------0---------------------------------0-----------
G------1------1----------------------------1----3----------------
D--------2-------------------------------------------------------
A----------------------------------------------------------------
E----------------------------------------------------------------

其他常用符号

现在我们已经知道六线谱上的音符如何弹奏了:应该按哪个品,应该拨哪根弦。在文本六线谱中还经常用到一些较重要的符号,包括打弦(hammer-ons),拉弦(pull offs),推弦(bends),揉弦(vibrato)等等。在音符数字之间添加这些符号,来表示此音符的演奏手法。下面是一些很常用的符号:

・ h - 打弦(hammer on)
・ p - 拉弦(pull offs)
・ b - 推弦(bends)
・ r - 推弦后的放弦(release bend)
・ / - 上行滑弦(slide up)
・ \ - 下行滑弦(slide down)
・ v - 揉弦颤音(vibrato)(有时写作~)
・ t - 右手打弦(tap)
・ <> - 泛音(harmonics)
・ x - 弹奏的时候制音

有时上行滑音和下行滑音都可以用字母s表示。最后的一个x表示制音,是由按弦的手轻触琴弦,再拨弦时所发出的声音是闷的,有种打击乐的效果。要注意,在六线谱里使用的x和在和弦里使用的x是完全不一样的。

比如我们写一个D和弦,象下面这样:
EADGBE ----六根弦调弦的音高
xx0232 ----和弦音的品位

这里面的x表示它所标示的弦不能弹奏和发音。而在文本六线谱里,如果在弦上没有任何标注,则表示此弦不发音,所以六线谱的D和弦应该是这样:

E-----2----------------------------------------------------------
B-----3----------------------------------------------------------
G-----2----------------------------------------------------------
D-----0----------------------------------------------------------
A----------------------------------------------------------------
E----------------------------------------------------------------

可以看到在第5、6弦上没有x。在文本六线谱中,x只表示制音弹奏。

另外还有一些符号,用来表示摇把拉弦,拨片擦弦等。这些符号没有固定的标准,有的歌曲六线谱的开头,会将一些特殊符号加以注释。

打弦和拉弦(Hammer on and Pull off)

打弦的符号标注是这样的:

E----------------------------------------------------------------
B----------------------------------------------------------------
G----------------------------------------------------------------
D----------------------------------------------------------------
A---------5h7-----------5h7--------------------------------------
E---0--0----------0--0-------------------------------------------

按照上面的谱子弹奏,先弹两下E弦的空弦,再弹奏A弦第5品,然后按弦的手敲击第7品。(具体弹奏手法见教程中的打弦)
拉弦的表示方法与打弦很相似:

E----3p0---------------------------------------------------------
B---------3p0----------------------------------------------------
G--------------2p0-----------------------------------------------
D-------------------2--------------------------------------------
A----------------------------------------------------------------
E----------------------------------------------------------------

这是一个下行的布鲁斯音阶,由按弦的手勾拉空弦。先按照数字弹奏音符,在谱中就是2和3品的音,然后按弦的手指通过勾拉的动作,发出空弦音。

由于打弦和勾弦都是靠左手完成,所以你拨弦时,只需拨第一个音。你也可以弹奏象下面这样的一长串的连续勾打,也只需要弹奏第一个音:

E----------------------------------------------------------------
B----------------------------------------------------------------
G---2h4p2h4p2h4p2h4p2h4p2----------------------------------------
D----------------------------------------------------------------
A----------------------------------------------------------------
E----------------------------------------------------------------

推弦(Bends)

文本六线谱中用字母b来表示推弦(如果你还不知道推弦如何弹奏,请看教程),象这样:

E----------------------------------------------------------------
B------7b9-------------------------------------------------------
G----------------------------------------------------------------
D----------------------------------------------------------------
A----------------------------------------------------------------
E----------------------------------------------------------------

它的弹奏方法是拨B弦第7品,然后按弦的手指将弦音推高两个半度(一个全音),以达到和第9品相同的音高。(有时推弦的后半个音会被写在括号里,如---7b(9)---)。

再看下面这个例子:
E----------------------------------------------------------------
B------7b9--9r7--------------------------------------------------
G----------------------------------------------------------------
D----------------------------------------------------------------
A----------------------------------------------------------------
E----------------------------------------------------------------

这表示弹第7品的音,推高两个半度,在保持第9品的音高时再拨弦,然后将弦放松,让音回到原始的音高。有时在乐曲中使用预推弦,也就是在拨弦之前就把弦先推起,然后再拨弦,松弦让音下降。预推弦的写法是这样的:

E----------------------------------------------------------------
B------(7)b9r7--------------------------------------------------
G----------------------------------------------------------------
D----------------------------------------------------------------
A----------------------------------------------------------------
E----------------------------------------------------------------

这表示按第7品,将弦推高两个半度(不发音),然后拨弦和放弦。

有时有的音的推弦很轻微,也许只是被推高了1/4全音。如果遇到这种情况,我们最好将推弦的音值文字注释出来,如:

    1/4推弦
E----------------------------------------------------------------
B------7b--------------------------------------------------------
G----------------------------------------------------------------
D----------------------------------------------------------------
A----------------------------------------------------------------
E----------------------------------------------------------------

滑弦(slide)

滑弦最通用的标记符号是:/ 表示上行,\ 表示下行。有时也会见到用 s 来表示滑弦(slide)。
下面的例子是从第7品到第9品的上行滑弦。
E----------------------------------------------------------------
B------7/9-------------------------------------------------------
G----------------------------------------------------------------
D----------------------------------------------------------------
A----------------------------------------------------------------
E----------------------------------------------------------------

有时你会看到想这样的记谱:

E----------------------------------------------------------------
B------/7-9-7\---------------------------------------------------
G----------------------------------------------------------------
D----------------------------------------------------------------
A----------------------------------------------------------------
E----------------------------------------------------------------

滑弦上行开始和先行停止的位置并没有明确给出。这就需要你根据自己对音乐的理解,来决定弹奏滑音的起始和停止的品位。其实这种弹奏手法是要达到一种效果,音突然从低品位滑上,然后在下滑的过程中消逝。

有时还会出现象下面这样的滑音组合:

E----------------------------------------------------------------
B------7/9/11\9\7\6\7--------------------------------------------
G----------------------------------------------------------------
D----------------------------------------------------------------
A----------------------------------------------------------------
E----------------------------------------------------------------

在弹奏时只拨第一个音,然后用滑弦使弦持续发声。

文本六线谱中的时值体现

一般在曲谱的前面会有歌曲的节奏与速度方面的信息,如4/4(歌曲是4/4拍的),120(每分钟120的速度)。

怎样写文本六线谱

如何开始

也许在开始写六线谱之前,最重要的就是要确定你的曲谱里会包含哪些东西。

要注意的几个问题:
・ 歌曲是否大部分都是用和弦演奏?
・ 在歌曲中是否贯穿一些riff(反复重复的乐句)?
・ 歌曲的结构是否清晰(分A段、B段或主段、合唱)?

经过这样的思考和计划,可以帮助你写出结构更清晰的六线谱,不仅方便别人阅读,也会使你在打谱的时候更容易些。

编辑工具上,你可以选择简易的写字板,也可以使用功能强大些的文本编辑工具,或者使用能够输出ASC码的打谱软件。如果你用的是较复杂的文字处理工具,如WORD,在写谱的时候则要注意使用的字体和大小都要一致,否则会使字符之间的距离不一样。

是否需要用六线谱

如果一首歌只用和弦就可以体现,那么只写出和弦名就可以了,不必把和弦音都写到六线谱上。比如Led Zepplin的'Gallows Pole',我们可以写出它的和弦:

前奏: A7 G/A A7 Am7 Dadd4/A A7 G/A A7 Am7 Dadd4/A

主段: A7 G/A A7 Am7 Dadd4/A A7 G/A A7 Am7 Dadd4/A
A7 G/A A7 Am7 Dadd4/A G D
A7 G/A A7 Am7 Dadd4/A A7 G/A A7 Am7 Dadd4/A

但是大多数的初学者对有些和弦的指法不太熟悉,如这首歌里的Dadd4/A。所以在曲谱的开始,你需要把和弦的指法写出:
EADGBE EADGBE EADGBE EADGBE EADGBE EADGBE
x02020 x02010 x04035 320033 xx0232 x00000

A7 Am7 Dadd4/A G D G/A

如果要用六线谱来打出这些和弦,会花很长的时间,而且也许会让读者花更多的时间去读懂。所以如果一首歌曲多是用和弦演奏的,只写出和弦名和和弦指法就行了。

如何去写

写六线谱最重要的是要写的清晰易懂。要注意以下这些事情:

◇使用空行

 在两行谱之间最好留有一定的空间,使其看上去不过于拥挤,容易阅读。

◇确认你要使用的字符

 尽量使用较通用的符号来表示推弦、打弦等。
 如果你在谱中使用了一些其他的特殊符号,应该在曲谱的开头将它们注释出来。
 下面是一些很常用的文本六线谱符号:

・ h - 打弦(hammer on)
・ p - 拉弦(pull offs)
・ b - 推弦(bends)
・ r - 推弦后的放弦(release bend)
・ / - 上行滑弦(slide up)
・ \ - 下行滑弦(slide down)
・ v - 揉弦颤音(vibrato)(有时写作~)
・ t - 右手打弦(tap)
・ <> - 泛音(harmonics)
・ x - 弹奏的时候制音

对于泛音,还有其他一些写法,甚至在标准的五线谱中,都没有一个最终的统一标准。但在文本六线谱中,用三角括号来表示泛音被大多数人接受。一个在12品上的自然泛音应该写为:

E----------------------------------------------------------------
B----------------------------------------------------------------
G----------------------------------------------------------------
D----------------------------------------------------------------
A----------------------------------------------------------------
E------<12>-------------------------------------------------------

由于没有符号来区分自然泛音和人工泛音,为了避免混淆,在写泛音的时候,最好把音符,也就是品位写上,来区分是否是自然泛音(一般在第5、第7、第12品位)还是人工泛音。要制造人工泛音,你必须左手在品位上按弦(比如第2品),然后右手在高一个八度的品位上(第14品)一个手指轻触琴弦其他手指同时拨弦。所以在写人工泛音时,要把触拨弦的品位写出来,象下面这样:

E----------------------------------------------------------------
B----------------------------------------------------------------
G----------------------------------------------------------------
D----------------------------------------------------------------
A----------------------------------------------------------------
E------<14>--<16>--<17>--<16>--<14>------------------------------

这表示在第2、第4和第5品上按弦,然后在括号里的标出的品位上触拨弦

◇标注乐曲的段落结构

在读谱的时候,能够知道哪里是主段部分,哪里是合唱部分,是十分方便的。所以要给读者提供这样的便利,就要在谱中做上标注。许多歌曲都按照主段和合唱这样的结构写成的。

◇概要描述

在曲谱的开始部位通常还会有几行的歌曲的信息的描述。它会包括歌曲的风格,如Rocking Blues, Funky等,这会使学习者很快的找到歌曲的感觉;还会有所使用吉他的信息,如是电琴还是箱琴,6弦还是12弦;另外还会有使用品夹和特殊调弦法的提示,如果使用了特殊的调弦法,那么每行谱子前面标注琴弦音高的字母也要改变,比如许多吉他手喜欢把他们的吉他琴弦都调低半音演奏,所以他们的弦的音高就是Eb Ab Db Gb Bb Eb,象下面这样:

Eb-----0---------------------------------------------------------
Bb-----0---------------------------------------------------------
Gb-----1---------------------------------------------------------
Db-----2---------------------------------------------------------
Ab-----2---------------------------------------------------------
Eb-----0---------------------------------------------------------

◇节奏信息

我们说过,文本六线谱在表现节奏和音值上还有缺陷。除了在曲谱开始给读者提供乐曲的节拍和速度信息外,小节线是一个表达节奏的手段。只需要在每一小节结束处加上"|"来表示小节线。象下面这样:

E--------|---------------|0--------4--2-|0--------------|--------
B---0----|----------0----|--------------|---------------|0-------
G------1-|-----1---------|--------------|-----1----3----|--------
D--------|2--------------|--------------|---------------|--------
A--------|---------------|--------------|---------------|--------
E--------|---------------|--------------|---------------|--------

◇歌词

将歌词与谱子对应会更方便学习者学习弹唱,至少是第一段歌词。

写六线谱的注意事项

◇曲谱的换行

在写文本六线谱时一个很常见的问题就是文本的自动换行。发生这样的情况会使六线谱无法阅读,但如果注意的话,这个问题也是很容易避免的。
问题发生的原因是你打的曲谱的文本长度超出了浏览器的宽度,就会把一行的文本拆为两行,象下面这样:

E---------------------------------------------0-------------------
----------------------------
B---------------------------------------2--4-----4--2-------------
----------------------------
G------------------------------1--2--4-----------------4--2--1----
----------------------------
D---------------------1--2--4-----------------------------------4-
-2--1-----------------------
A------------0--2--4----------------------------------------------
-------4--2--0--------------
E---0--2--4-------------------------------------------------------
----------------4--2--0-----

这样的谱子看上去很糟糕,所以在写谱的时候一定要小心,注意每行不要过长。

 

:::: Rock In Blue 蓝色空间 版权所有 未经允许 请勿转载 ::::